ISO-10303-21;
HEADER;
/* Generated by software containing ST-Developer
 * from STEP Tools, Inc. (www.steptools.com) 
 */

FILE_DESCRIPTION(
/* description */ (''),
/* implementation_level */ '2;1');

FILE_NAME(
/* name */ 
'N:\\Website Relaunch\\Produktbilder\\Produktbilder_fertig\\bild_produ
ct_id10\\model_product_id10.stp',
/* time_stamp */ '2016-06-10T11:20:14+02:00',
/* author */ ('SD'),
/* organization */ ('Micromotion GmbH Germany'),
/* preprocessor_version */ 'ST-DEVELOPER v16.1',
/* originating_system */ 'Autodesk Inventor 2016',
/* authorisation */ '');

FILE_SCHEMA (('AUTOMOTIVE_DESIGN { 1 0 10303 214 3 1 1 }'));
ENDSEC;

DATA;
#10=MECHANICAL_DESIGN_GEOMETRIC_PRESENTATION_REPRESENTATION('',(#225,#226,
#227,#228,#229,#230,#231,#232,#233,#238,#234,#235,#242,#243,#244,#245,#246,
#247,#236,#237,#239,#240,#241),#471);
#11=SHAPE_REPRESENTATION_RELATIONSHIP('SRR','None',#480,#12);
#12=ADVANCED_BREP_SHAPE_REPRESENTATION('',(#13),#470);
#13=MANIFOLD_SOLID_BREP('Volumenk\X\F6rper1',#270);
#14=TOROIDAL_SURFACE('',#286,1.09999999999994,0.0999999999999995);
#15=TOROIDAL_SURFACE('',#300,1.95,0.05);
#16=CONICAL_SURFACE('',#278,2.9,45.);
#17=CONICAL_SURFACE('',#293,0.949999999999929,45.0000000000001);
#18=CONICAL_SURFACE('',#303,2.975,45.);
#19=CONICAL_SURFACE('',#307,2.975,45.);
#20=CONICAL_SURFACE('',#310,0.950000000000001,45.0000000000004);
#21=CYLINDRICAL_SURFACE('',#275,2.75);
#22=CYLINDRICAL_SURFACE('',#280,3.);
#23=CYLINDRICAL_SURFACE('',#283,0.999999999999941);
#24=CYLINDRICAL_SURFACE('',#290,1.3);
#25=CYLINDRICAL_SURFACE('',#297,2.);
#26=CYLINDRICAL_SURFACE('',#305,3.);
#27=CYLINDRICAL_SURFACE('',#313,1.);
#28=FACE_BOUND('',#71,.T.);
#29=FACE_BOUND('',#73,.T.);
#30=FACE_BOUND('',#75,.T.);
#31=FACE_BOUND('',#77,.T.);
#32=FACE_BOUND('',#79,.T.);
#33=FACE_BOUND('',#81,.T.);
#34=FACE_BOUND('',#83,.T.);
#35=FACE_BOUND('',#85,.T.);
#36=FACE_BOUND('',#87,.T.);
#37=FACE_BOUND('',#90,.T.);
#38=FACE_BOUND('',#92,.T.);
#39=FACE_BOUND('',#94,.T.);
#40=FACE_BOUND('',#96,.T.);
#41=FACE_BOUND('',#98,.T.);
#42=FACE_BOUND('',#100,.T.);
#43=FACE_BOUND('',#102,.T.);
#44=FACE_BOUND('',#104,.T.);
#45=FACE_BOUND('',#106,.T.);
#46=FACE_BOUND('',#108,.T.);
#47=FACE_BOUND('',#110,.T.);
#48=FACE_OUTER_BOUND('',#70,.T.);
#49=FACE_OUTER_BOUND('',#72,.T.);
#50=FACE_OUTER_BOUND('',#74,.T.);
#51=FACE_OUTER_BOUND('',#76,.T.);
#52=FACE_OUTER_BOUND('',#78,.T.);
#53=FACE_OUTER_BOUND('',#80,.T.);
#54=FACE_OUTER_BOUND('',#82,.T.);
#55=FACE_OUTER_BOUND('',#84,.T.);
#56=FACE_OUTER_BOUND('',#86,.T.);
#57=FACE_OUTER_BOUND('',#88,.T.);
#58=FACE_OUTER_BOUND('',#89,.T.);
#59=FACE_OUTER_BOUND('',#91,.T.);
#60=FACE_OUTER_BOUND('',#93,.T.);
#61=FACE_OUTER_BOUND('',#95,.T.);
#62=FACE_OUTER_BOUND('',#97,.T.);
#63=FACE_OUTER_BOUND('',#99,.T.);
#64=FACE_OUTER_BOUND('',#101,.T.);
#65=FACE_OUTER_BOUND('',#103,.T.);
#66=FACE_OUTER_BOUND('',#105,.T.);
#67=FACE_OUTER_BOUND('',#107,.T.);
#68=FACE_OUTER_BOUND('',#109,.T.);
#69=FACE_OUTER_BOUND('',#111,.T.);
#70=EDGE_LOOP('',(#175));
#71=EDGE_LOOP('',(#176));
#72=EDGE_LOOP('',(#177));
#73=EDGE_LOOP('',(#178));
#74=EDGE_LOOP('',(#179));
#75=EDGE_LOOP('',(#180));
#76=EDGE_LOOP('',(#181));
#77=EDGE_LOOP('',(#182));
#78=EDGE_LOOP('',(#183));
#79=EDGE_LOOP('',(#184));
#80=EDGE_LOOP('',(#185));
#81=EDGE_LOOP('',(#186));
#82=EDGE_LOOP('',(#187));
#83=EDGE_LOOP('',(#188));
#84=EDGE_LOOP('',(#189));
#85=EDGE_LOOP('',(#190));
#86=EDGE_LOOP('',(#191));
#87=EDGE_LOOP('',(#192));
#88=EDGE_LOOP('',(#193));
#89=EDGE_LOOP('',(#194));
#90=EDGE_LOOP('',(#195));
#91=EDGE_LOOP('',(#196));
#92=EDGE_LOOP('',(#197));
#93=EDGE_LOOP('',(#198));
#94=EDGE_LOOP('',(#199));
#95=EDGE_LOOP('',(#200));
#96=EDGE_LOOP('',(#201));
#97=EDGE_LOOP('',(#202));
#98=EDGE_LOOP('',(#203));
#99=EDGE_LOOP('',(#204));
#100=EDGE_LOOP('',(#205));
#101=EDGE_LOOP('',(#206));
#102=EDGE_LOOP('',(#207));
#103=EDGE_LOOP('',(#208));
#104=EDGE_LOOP('',(#209));
#105=EDGE_LOOP('',(#210));
#106=EDGE_LOOP('',(#211));
#107=EDGE_LOOP('',(#212));
#108=EDGE_LOOP('',(#213));
#109=EDGE_LOOP('',(#214));
#110=EDGE_LOOP('',(#215));
#111=EDGE_LOOP('',(#216));
#112=CIRCLE('',#273,2.8);
#113=CIRCLE('',#274,1.3);
#114=CIRCLE('',#276,2.75);
#115=CIRCLE('',#277,2.75);
#116=CIRCLE('',#279,3.);
#117=CIRCLE('',#281,3.);
#118=CIRCLE('',#284,0.999999999999941);
#119=CIRCLE('',#285,0.999999999999941);
#120=CIRCLE('',#287,1.09999999999994);
#121=CIRCLE('',#289,1.3);
#122=CIRCLE('',#292,0.899999999999918);
#123=CIRCLE('',#295,1.95);
#124=CIRCLE('',#296,1.);
#125=CIRCLE('',#298,2.);
#126=CIRCLE('',#299,2.);
#127=CIRCLE('',#302,2.95);
#128=CIRCLE('',#304,3.);
#129=CIRCLE('',#306,3.);
#130=CIRCLE('',#308,2.95);
#131=CIRCLE('',#311,1.);
#132=CIRCLE('',#312,0.9);
#133=VERTEX_POINT('',#405);
#134=VERTEX_POINT('',#407);
#135=VERTEX_POINT('',#410);
#136=VERTEX_POINT('',#412);
#137=VERTEX_POINT('',#415);
#138=VERTEX_POINT('',#418);
#139=VERTEX_POINT('',#422);
#140=VERTEX_POINT('',#424);
#141=VERTEX_POINT('',#427);
#142=VERTEX_POINT('',#430);
#143=VERTEX_POINT('',#434);
#144=VERTEX_POINT('',#438);
#145=VERTEX_POINT('',#440);
#146=VERTEX_POINT('',#443);
#147=VERTEX_POINT('',#445);
#148=VERTEX_POINT('',#449);
#149=VERTEX_POINT('',#452);
#150=VERTEX_POINT('',#455);
#151=VERTEX_POINT('',#458);
#152=VERTEX_POINT('',#462);
#153=VERTEX_POINT('',#464);
#154=EDGE_CURVE('',#133,#133,#112,.T.);
#155=EDGE_CURVE('',#134,#134,#113,.T.);
#156=EDGE_CURVE('',#135,#135,#114,.T.);
#157=EDGE_CURVE('',#136,#136,#115,.T.);
#158=EDGE_CURVE('',#137,#137,#116,.T.);
#159=EDGE_CURVE('',#138,#138,#117,.T.);
#160=EDGE_CURVE('',#139,#139,#118,.T.);
#161=EDGE_CURVE('',#140,#140,#119,.T.);
#162=EDGE_CURVE('',#141,#141,#120,.T.);
#163=EDGE_CURVE('',#142,#142,#121,.T.);
#164=EDGE_CURVE('',#143,#143,#122,.T.);
#165=EDGE_CURVE('',#144,#144,#123,.T.);
#166=EDGE_CURVE('',#145,#145,#124,.T.);
#167=EDGE_CURVE('',#146,#146,#125,.T.);
#168=EDGE_CURVE('',#147,#147,#126,.T.);
#169=EDGE_CURVE('',#148,#148,#127,.T.);
#170=EDGE_CURVE('',#149,#149,#128,.T.);
#171=EDGE_CURVE('',#150,#150,#129,.T.);
#172=EDGE_CURVE('',#151,#151,#130,.T.);
#173=EDGE_CURVE('',#152,#152,#131,.T.);
#174=EDGE_CURVE('',#153,#153,#132,.T.);
#175=ORIENTED_EDGE('',*,*,#154,.F.);
#176=ORIENTED_EDGE('',*,*,#155,.T.);
#177=ORIENTED_EDGE('',*,*,#156,.T.);
#178=ORIENTED_EDGE('',*,*,#157,.F.);
#179=ORIENTED_EDGE('',*,*,#154,.T.);
#180=ORIENTED_EDGE('',*,*,#158,.T.);
#181=ORIENTED_EDGE('',*,*,#159,.F.);
#182=ORIENTED_EDGE('',*,*,#158,.F.);
#183=ORIENTED_EDGE('',*,*,#159,.T.);
#184=ORIENTED_EDGE('',*,*,#156,.F.);
#185=ORIENTED_EDGE('',*,*,#160,.F.);
#186=ORIENTED_EDGE('',*,*,#161,.T.);
#187=ORIENTED_EDGE('',*,*,#162,.F.);
#188=ORIENTED_EDGE('',*,*,#160,.T.);
#189=ORIENTED_EDGE('',*,*,#163,.F.);
#190=ORIENTED_EDGE('',*,*,#162,.T.);
#191=ORIENTED_EDGE('',*,*,#155,.F.);
#192=ORIENTED_EDGE('',*,*,#163,.T.);
#193=ORIENTED_EDGE('',*,*,#164,.F.);
#194=ORIENTED_EDGE('',*,*,#161,.F.);
#195=ORIENTED_EDGE('',*,*,#164,.T.);
#196=ORIENTED_EDGE('',*,*,#165,.F.);
#197=ORIENTED_EDGE('',*,*,#166,.F.);
#198=ORIENTED_EDGE('',*,*,#167,.F.);
#199=ORIENTED_EDGE('',*,*,#168,.F.);
#200=ORIENTED_EDGE('',*,*,#165,.T.);
#201=ORIENTED_EDGE('',*,*,#167,.T.);
#202=ORIENTED_EDGE('',*,*,#169,.F.);
#203=ORIENTED_EDGE('',*,*,#168,.T.);
#204=ORIENTED_EDGE('',*,*,#170,.T.);
#205=ORIENTED_EDGE('',*,*,#169,.T.);
#206=ORIENTED_EDGE('',*,*,#171,.F.);
#207=ORIENTED_EDGE('',*,*,#170,.F.);
#208=ORIENTED_EDGE('',*,*,#172,.T.);
#209=ORIENTED_EDGE('',*,*,#171,.T.);
#210=ORIENTED_EDGE('',*,*,#172,.F.);
#211=ORIENTED_EDGE('',*,*,#157,.T.);
#212=ORIENTED_EDGE('',*,*,#173,.T.);
#213=ORIENTED_EDGE('',*,*,#174,.T.);
#214=ORIENTED_EDGE('',*,*,#166,.T.);
#215=ORIENTED_EDGE('',*,*,#173,.F.);
#216=ORIENTED_EDGE('',*,*,#174,.F.);
#217=PLANE('',#272);
#218=PLANE('',#282);
#219=PLANE('',#288);
#220=PLANE('',#291);
#221=PLANE('',#294);
#222=PLANE('',#301);
#223=PLANE('',#309);
#224=PLANE('',#314);
#225=STYLED_ITEM('',(#490),#248);
#226=STYLED_ITEM('',(#490),#249);
#227=STYLED_ITEM('',(#490),#250);
#228=STYLED_ITEM('',(#490),#251);
#229=STYLED_ITEM('',(#490),#252);
#230=STYLED_ITEM('',(#490),#253);
#231=STYLED_ITEM('',(#490),#254);
#232=STYLED_ITEM('',(#490),#255);
#233=STYLED_ITEM('',(#490),#256);
#234=STYLED_ITEM('',(#490),#257);
#235=STYLED_ITEM('',(#490),#258);
#236=STYLED_ITEM('',(#491),#259);
#237=STYLED_ITEM('',(#491),#260);
#238=STYLED_ITEM('',(#491),#261);
#239=STYLED_ITEM('',(#492),#262);
#240=STYLED_ITEM('',(#492),#263);
#241=STYLED_ITEM('',(#492),#264);
#242=STYLED_ITEM('',(#492),#265);
#243=STYLED_ITEM('',(#492),#266);
#244=STYLED_ITEM('',(#490),#267);
#245=STYLED_ITEM('',(#490),#268);
#246=STYLED_ITEM('',(#490),#269);
#247=STYLED_ITEM('',(#489),#13);
#248=ADVANCED_FACE('',(#48,#28),#217,.T.);
#249=ADVANCED_FACE('',(#49,#29),#21,.T.);
#250=ADVANCED_FACE('',(#50,#30),#16,.T.);
#251=ADVANCED_FACE('',(#51,#31),#22,.T.);
#252=ADVANCED_FACE('',(#52,#32),#218,.T.);
#253=ADVANCED_FACE('',(#53,#33),#23,.T.);
#254=ADVANCED_FACE('',(#54,#34),#14,.F.);
#255=ADVANCED_FACE('',(#55,#35),#219,.T.);
#256=ADVANCED_FACE('',(#56,#36),#24,.T.);
#257=ADVANCED_FACE('',(#57),#220,.T.);
#258=ADVANCED_FACE('',(#58,#37),#17,.T.);
#259=ADVANCED_FACE('',(#59,#38),#221,.T.);
#260=ADVANCED_FACE('',(#60,#39),#25,.T.);
#261=ADVANCED_FACE('',(#61,#40),#15,.T.);
#262=ADVANCED_FACE('',(#62,#41),#222,.T.);
#263=ADVANCED_FACE('',(#63,#42),#18,.T.);
#264=ADVANCED_FACE('',(#64,#43),#26,.T.);
#265=ADVANCED_FACE('',(#65,#44),#19,.T.);
#266=ADVANCED_FACE('',(#66,#45),#223,.F.);
#267=ADVANCED_FACE('',(#67,#46),#20,.T.);
#268=ADVANCED_FACE('',(#68,#47),#27,.T.);
#269=ADVANCED_FACE('',(#69),#224,.T.);
#270=CLOSED_SHELL('',(#248,#249,#250,#251,#252,#253,#254,#255,#256,#257,
#258,#259,#260,#261,#262,#263,#264,#265,#266,#267,#268,#269));
#271=AXIS2_PLACEMENT_3D('placement',#403,#315,#316);
#272=AXIS2_PLACEMENT_3D('',#404,#317,#318);
#273=AXIS2_PLACEMENT_3D('',#406,#319,#320);
#274=AXIS2_PLACEMENT_3D('',#408,#321,#322);
#275=AXIS2_PLACEMENT_3D('',#409,#323,#324);
#276=AXIS2_PLACEMENT_3D('',#411,#325,#326);
#277=AXIS2_PLACEMENT_3D('',#413,#327,#328);
#278=AXIS2_PLACEMENT_3D('',#414,#329,#330);
#279=AXIS2_PLACEMENT_3D('',#416,#331,#332);
#280=AXIS2_PLACEMENT_3D('',#417,#333,#334);
#281=AXIS2_PLACEMENT_3D('',#419,#335,#336);
#282=AXIS2_PLACEMENT_3D('',#420,#337,#338);
#283=AXIS2_PLACEMENT_3D('',#421,#339,#340);
#284=AXIS2_PLACEMENT_3D('',#423,#341,#342);
#285=AXIS2_PLACEMENT_3D('',#425,#343,#344);
#286=AXIS2_PLACEMENT_3D('',#426,#345,#346);
#287=AXIS2_PLACEMENT_3D('',#428,#347,#348);
#288=AXIS2_PLACEMENT_3D('',#429,#349,#350);
#289=AXIS2_PLACEMENT_3D('',#431,#351,#352);
#290=AXIS2_PLACEMENT_3D('',#432,#353,#354);
#291=AXIS2_PLACEMENT_3D('',#433,#355,#356);
#292=AXIS2_PLACEMENT_3D('',#435,#357,#358);
#293=AXIS2_PLACEMENT_3D('',#436,#359,#360);
#294=AXIS2_PLACEMENT_3D('',#437,#361,#362);
#295=AXIS2_PLACEMENT_3D('',#439,#363,#364);
#296=AXIS2_PLACEMENT_3D('',#441,#365,#366);
#297=AXIS2_PLACEMENT_3D('',#442,#367,#368);
#298=AXIS2_PLACEMENT_3D('',#444,#369,#370);
#299=AXIS2_PLACEMENT_3D('',#446,#371,#372);
#300=AXIS2_PLACEMENT_3D('',#447,#373,#374);
#301=AXIS2_PLACEMENT_3D('',#448,#375,#376);
#302=AXIS2_PLACEMENT_3D('',#450,#377,#378);
#303=AXIS2_PLACEMENT_3D('',#451,#379,#380);
#304=AXIS2_PLACEMENT_3D('',#453,#381,#382);
#305=AXIS2_PLACEMENT_3D('',#454,#383,#384);
#306=AXIS2_PLACEMENT_3D('',#456,#385,#386);
#307=AXIS2_PLACEMENT_3D('',#457,#387,#388);
#308=AXIS2_PLACEMENT_3D('',#459,#389,#390);
#309=AXIS2_PLACEMENT_3D('',#460,#391,#392);
#310=AXIS2_PLACEMENT_3D('',#461,#393,#394);
#311=AXIS2_PLACEMENT_3D('',#463,#395,#396);
#312=AXIS2_PLACEMENT_3D('',#465,#397,#398);
#313=AXIS2_PLACEMENT_3D('',#466,#399,#400);
#314=AXIS2_PLACEMENT_3D('',#467,#401,#402);
#315=DIRECTION('axis',(0.,0.,1.));
#316=DIRECTION('refdir',(1.,0.,0.));
#317=DIRECTION('center_axis',(-1.,-1.14143661634575E-16,5.51595477722955E-16));
#318=DIRECTION('ref_axis',(5.32907051820075E-16,4.44089209850063E-17,1.));
#319=DIRECTION('center_axis',(1.,1.14143661634575E-16,-5.51595477722955E-16));
#320=DIRECTION('ref_axis',(1.14143661634575E-16,-1.,4.73545521495537E-17));
#321=DIRECTION('center_axis',(1.,-5.55111512312578E-16,2.60292440492287E-16));
#322=DIRECTION('ref_axis',(5.55111512312578E-16,1.,-4.73545521495533E-17));
#323=DIRECTION('center_axis',(1.,1.14143661634575E-16,-5.51595477722955E-16));
#324=DIRECTION('ref_axis',(-1.14143661634575E-16,1.,-4.73545521495537E-17));
#325=DIRECTION('center_axis',(1.,1.14143661634575E-16,-5.51595477722955E-16));
#326=DIRECTION('ref_axis',(-1.14143661634575E-16,1.,-4.73545521495537E-17));
#327=DIRECTION('center_axis',(1.,5.57687238039896E-16,0.));
#328=DIRECTION('ref_axis',(-1.14143661634575E-16,1.,-4.73545521495537E-17));
#329=DIRECTION('center_axis',(1.,1.14143661634575E-16,-5.51595477722955E-16));
#330=DIRECTION('ref_axis',(1.14143661634575E-16,-1.,4.73545521495537E-17));
#331=DIRECTION('center_axis',(-1.,-1.14143661634575E-16,5.51595477722955E-16));
#332=DIRECTION('ref_axis',(1.14143661634575E-16,-1.,4.73545521495537E-17));
#333=DIRECTION('center_axis',(1.,1.14143661634575E-16,-5.51595477722955E-16));
#334=DIRECTION('ref_axis',(-1.14143661634575E-16,1.,-4.73545521495537E-17));
#335=DIRECTION('center_axis',(1.,1.14143661634575E-16,-5.51595477722955E-16));
#336=DIRECTION('ref_axis',(-1.14143661634575E-16,1.,-4.73545521495537E-17));
#337=DIRECTION('center_axis',(1.,1.14143661634575E-16,-5.51595477722955E-16));
#338=DIRECTION('ref_axis',(-5.32907051820075E-16,-4.44089209850063E-17,
-1.));
#339=DIRECTION('center_axis',(1.,-5.55111512312578E-16,2.60292440492287E-16));
#340=DIRECTION('ref_axis',(5.55111512312578E-16,1.,-4.73545521495533E-17));
#341=DIRECTION('center_axis',(1.,-5.55111512312578E-16,2.60292440492287E-16));
#342=DIRECTION('ref_axis',(5.55111512312578E-16,1.,-4.73545521495533E-17));
#343=DIRECTION('center_axis',(1.,-5.55111512312578E-16,2.60292440492287E-16));
#344=DIRECTION('ref_axis',(5.55111512312578E-16,1.,-4.73545521495533E-17));
#345=DIRECTION('center_axis',(1.,-5.55111512312578E-16,2.60292440492287E-16));
#346=DIRECTION('ref_axis',(0.,-4.73434948652027E-17,-1.));
#347=DIRECTION('center_axis',(1.,-5.55111512312578E-16,2.60292440492287E-16));
#348=DIRECTION('ref_axis',(5.55111512312578E-16,1.,-4.73545521495533E-17));
#349=DIRECTION('center_axis',(-1.,5.55111512312578E-16,-2.60292440492287E-16));
#350=DIRECTION('ref_axis',(-1.77635683940025E-16,4.44089209850063E-17,1.));
#351=DIRECTION('center_axis',(1.,-5.55111512312578E-16,2.60292440492287E-16));
#352=DIRECTION('ref_axis',(5.55111512312578E-16,1.,-4.73545521495533E-17));
#353=DIRECTION('center_axis',(1.,-5.55111512312578E-16,2.60292440492287E-16));
#354=DIRECTION('ref_axis',(5.55111512312578E-16,1.,-4.73545521495533E-17));
#355=DIRECTION('center_axis',(-1.,5.55111512312578E-16,-2.60292440492287E-16));
#356=DIRECTION('ref_axis',(-1.77635683940025E-16,4.9960036108132E-17,1.));
#357=DIRECTION('center_axis',(1.,-5.55111512312578E-16,2.60292440492287E-16));
#358=DIRECTION('ref_axis',(5.55111512312578E-16,1.,-4.73545521495533E-17));
#359=DIRECTION('center_axis',(1.,-5.55111512312578E-16,2.60292440492287E-16));
#360=DIRECTION('ref_axis',(5.55111512312578E-16,1.,-4.73545521495533E-17));
#361=DIRECTION('center_axis',(1.,4.75585719579274E-16,7.52105714278458E-16));
#362=DIRECTION('ref_axis',(-4.88498130835069E-16,1.,-4.66293670342566E-16));
#363=DIRECTION('center_axis',(-1.,-4.75585719579274E-16,-7.52105714278458E-16));
#364=DIRECTION('ref_axis',(7.52105714278458E-16,-3.53121039664538E-16,-1.));
#365=DIRECTION('center_axis',(1.,4.75585719579274E-16,7.52105714278458E-16));
#366=DIRECTION('ref_axis',(-4.4411106011422E-16,1.,0.));
#367=DIRECTION('center_axis',(-1.,-4.75585719579274E-16,-7.52105714278458E-16));
#368=DIRECTION('ref_axis',(-5.1555249446217E-16,4.75585719579273E-16,1.));
#369=DIRECTION('center_axis',(1.,4.75585719579274E-16,7.52105714278458E-16));
#370=DIRECTION('ref_axis',(7.52105714278458E-16,-3.53121039664538E-16,-1.));
#371=DIRECTION('center_axis',(-1.,-5.57687238039896E-16,0.));
#372=DIRECTION('ref_axis',(-5.1555249446217E-16,4.75585719579273E-16,1.));
#373=DIRECTION('center_axis',(-1.,-4.75585719579274E-16,-7.52105714278458E-16));
#374=DIRECTION('ref_axis',(4.44089209850064E-16,-1.,4.75585719579274E-16));
#375=DIRECTION('center_axis',(1.,5.57687238039896E-16,0.));
#376=DIRECTION('ref_axis',(0.,6.12303176911189E-17,1.));
#377=DIRECTION('center_axis',(-1.,-5.57687238039896E-16,0.));
#378=DIRECTION('ref_axis',(-3.41484945495443E-32,6.12323399573677E-17,1.));
#379=DIRECTION('center_axis',(-1.,-5.57687238039896E-16,0.));
#380=DIRECTION('ref_axis',(-3.41484945495443E-32,6.12323399573677E-17,1.));
#381=DIRECTION('center_axis',(1.,5.57687238039896E-16,0.));
#382=DIRECTION('ref_axis',(-3.41484945495443E-32,6.12323399573677E-17,1.));
#383=DIRECTION('center_axis',(-1.,-5.57687238039896E-16,0.));
#384=DIRECTION('ref_axis',(-3.41484945495443E-32,6.12323399573677E-17,1.));
#385=DIRECTION('center_axis',(-1.,-5.57687238039896E-16,0.));
#386=DIRECTION('ref_axis',(-3.41484945495443E-32,6.12323399573677E-17,1.));
#387=DIRECTION('center_axis',(1.,5.57687238039896E-16,0.));
#388=DIRECTION('ref_axis',(-3.41484945495443E-32,6.12323399573677E-17,1.));
#389=DIRECTION('center_axis',(1.,5.57687238039896E-16,0.));
#390=DIRECTION('ref_axis',(-3.41484945495443E-32,6.12323399573677E-17,1.));
#391=DIRECTION('center_axis',(1.,5.57687238039896E-16,0.));
#392=DIRECTION('ref_axis',(0.,6.12303176911189E-17,1.));
#393=DIRECTION('center_axis',(-1.,-5.57687238039896E-16,0.));
#394=DIRECTION('ref_axis',(4.9791030228954E-16,-1.,0.));
#395=DIRECTION('center_axis',(1.,5.57687238039896E-16,0.));
#396=DIRECTION('ref_axis',(4.4411106011422E-16,-1.,0.));
#397=DIRECTION('center_axis',(-1.,-5.57687238039896E-16,0.));
#398=DIRECTION('ref_axis',(5.57687238039896E-16,-1.,0.));
#399=DIRECTION('center_axis',(1.,5.57687238039896E-16,0.));
#400=DIRECTION('ref_axis',(-4.4411106011422E-16,1.,0.));
#401=DIRECTION('center_axis',(1.,5.57687238039896E-16,0.));
#402=DIRECTION('ref_axis',(0.,0.,-1.));
#403=CARTESIAN_POINT('',(0.,0.,0.));
#404=CARTESIAN_POINT('Origin',(-12.9,2.58708230672667,-0.00041110646572399));
#405=CARTESIAN_POINT('',(-12.9,2.80047976634823,-0.000411106465723658));
#406=CARTESIAN_POINT('Origin',(-12.9,0.000479766348226311,-0.000411106465723868));
#407=CARTESIAN_POINT('',(-12.9,1.30047976634823,-0.000411106465723929));
#408=CARTESIAN_POINT('Origin',(-12.9,0.000479766348233095,-0.000411106465723868));
#409=CARTESIAN_POINT('Origin',(-9.54,0.000479766348226695,-0.000411106465725721));
#410=CARTESIAN_POINT('',(-10.48,2.75047976634823,-0.000411106465725333));
#411=CARTESIAN_POINT('Origin',(-10.48,0.000479766348226587,-0.000411106465725203));
#412=CARTESIAN_POINT('',(-10.4,-2.74952023365177,-0.000411106465725453));
#413=CARTESIAN_POINT('Origin',(-10.4,0.000479766348226597,-0.000411106465725247));
#414=CARTESIAN_POINT('Origin',(-12.8,0.000479766348226323,-0.000411106465723923));
#415=CARTESIAN_POINT('',(-12.7,3.00047976634823,-0.000411106465724488));
#416=CARTESIAN_POINT('Origin',(-12.7,0.000479766348226334,-0.000411106465723978));
#417=CARTESIAN_POINT('Origin',(-11.69,0.000479766348226449,-0.000411106465724535));
#418=CARTESIAN_POINT('',(-10.48,3.00047976634823,-0.000411106465725345));
#419=CARTESIAN_POINT('Origin',(-10.48,0.000479766348226587,-0.000411106465725203));
#420=CARTESIAN_POINT('Origin',(-10.48,2.87547976634823,-0.000411106465725339));
#421=CARTESIAN_POINT('Origin',(-14.55,0.000479766348234011,-0.000411106465724297));
#422=CARTESIAN_POINT('',(-13.3,1.00047976634817,-0.000411106465724019));
#423=CARTESIAN_POINT('Origin',(-13.3,0.000479766348233317,-0.000411106465723972));
#424=CARTESIAN_POINT('',(-15.8,1.00047976634818,-0.00041110646572467));
#425=CARTESIAN_POINT('Origin',(-15.8,0.000479766348234705,-0.000411106465724623));
#426=CARTESIAN_POINT('Origin',(-13.3,0.000479766348233317,-0.000411106465723972));
#427=CARTESIAN_POINT('',(-13.2,1.10047976634817,-0.000411106465723998));
#428=CARTESIAN_POINT('Origin',(-13.2,0.000479766348233262,-0.000411106465723946));
#429=CARTESIAN_POINT('Origin',(-13.2,1.2004797663482,-0.000411106465724003));
#430=CARTESIAN_POINT('',(-13.2,1.30047976634823,-0.000411106465724007));
#431=CARTESIAN_POINT('Origin',(-13.2,0.000479766348233262,-0.000411106465723946));
#432=CARTESIAN_POINT('Origin',(-13.05,0.000479766348233178,-0.000411106465723907));
#433=CARTESIAN_POINT('Origin',(-15.9,0.450479766348194,-0.00041110646572467));
#434=CARTESIAN_POINT('',(-15.9,0.900479766348153,-0.000411106465724691));
#435=CARTESIAN_POINT('Origin',(-15.9,0.00047976634823476,-0.000411106465724649));
#436=CARTESIAN_POINT('Origin',(-15.85,0.000479766348234733,-0.000411106465724636));
#437=CARTESIAN_POINT('Origin',(-3.40000000000001,-3.29049220217469E-15,
1.163));
#438=CARTESIAN_POINT('',(-3.40000000000001,-2.91620624086581E-15,1.95));
#439=CARTESIAN_POINT('Origin',(-3.40000000000001,-3.84359839404539E-15,
1.49968434218182E-15));
#440=CARTESIAN_POINT('',(-3.40000000000001,-1.,-1.22464679914735E-16));
#441=CARTESIAN_POINT('Origin',(-3.40000000000001,-3.61379596036901E-15,
0.));
#442=CARTESIAN_POINT('Origin',(-4.40000000000001,-4.31918411362466E-15,
7.47578627903367E-16));
#443=CARTESIAN_POINT('',(-3.45000000000001,-3.40606496052475E-15,2.));
#444=CARTESIAN_POINT('Origin',(-3.45000000000001,-3.86737768002435E-15,
1.4620790564679E-15));
#445=CARTESIAN_POINT('',(-4.2,-5.42016776869682E-15,-1.99999999999999));
#446=CARTESIAN_POINT('Origin',(-4.2,-4.2240669697088E-15,8.97999770759067E-16));
#447=CARTESIAN_POINT('Origin',(-3.45000000000001,-3.86737768002435E-15,
1.4620790564679E-15));
#448=CARTESIAN_POINT('Origin',(-4.2,0.000479766348225441,-0.00041110646572624));
#449=CARTESIAN_POINT('',(-4.2,0.000479766348224899,-2.95041110646573));
#450=CARTESIAN_POINT('Origin',(-4.2,0.000479766348225441,-0.00041110646572624));
#451=CARTESIAN_POINT('Origin',(-4.225,0.000479766348225427,-0.00041110646572624));
#452=CARTESIAN_POINT('',(-4.25,0.000479766348225597,-3.00041110646573));
#453=CARTESIAN_POINT('Origin',(-4.25,0.000479766348225413,-0.00041110646572624));
#454=CARTESIAN_POINT('Origin',(-4.2,0.000479766348225441,-0.00041110646572624));
#455=CARTESIAN_POINT('',(-10.35,0.00047976634822146,-3.00041110646573));
#456=CARTESIAN_POINT('Origin',(-10.35,0.000479766348222011,-0.00041110646572624));
#457=CARTESIAN_POINT('Origin',(-10.375,0.000479766348221997,-0.00041110646572624));
#458=CARTESIAN_POINT('',(-10.4,0.000479766348222164,-2.95041110646573));
#459=CARTESIAN_POINT('Origin',(-10.4,0.000479766348221984,-0.00041110646572624));
#460=CARTESIAN_POINT('Origin',(-10.4,0.000479766348221984,-0.00041110646572624));
#461=CARTESIAN_POINT('Origin',(-0.0499999999999981,-1.74554371293535E-15,
0.));
#462=CARTESIAN_POINT('',(-0.0999999999999983,0.999999999999999,1.22464679914735E-16));
#463=CARTESIAN_POINT('Origin',(-0.0999999999999979,-1.77342807483735E-15,
0.));
#464=CARTESIAN_POINT('',(1.09402708366276E-15,0.899999999999999,-1.10218211923262E-16));
#465=CARTESIAN_POINT('Origin',(1.59594559789866E-15,-1.71765935103336E-15,
0.));
#466=CARTESIAN_POINT('Origin',(-3.2,-3.50225851276102E-15,0.));
#467=CARTESIAN_POINT('Origin',(1.11022302462516E-15,0.874999999999999,0.));
#468=UNCERTAINTY_MEASURE_WITH_UNIT(LENGTH_MEASURE(0.01),#472,
'DISTANCE_ACCURACY_VALUE',
'Maximum model space distance between geometric entities at asserted c
onnectivities');
#469=UNCERTAINTY_MEASURE_WITH_UNIT(LENGTH_MEASURE(1.E-6),#472,
'DISTANCE_ACCURACY_VALUE',
'Maximum model space distance between geometric entities at asserted c
onnectivities');
#470=(
GEOMETRIC_REPRESENTATION_CONTEXT(3)
GLOBAL_UNCERTAINTY_ASSIGNED_CONTEXT((#468))
GLOBAL_UNIT_ASSIGNED_CONTEXT((#472,#475,#473))
REPRESENTATION_CONTEXT('','3D')
);
#471=(
GEOMETRIC_REPRESENTATION_CONTEXT(3)
GLOBAL_UNCERTAINTY_ASSIGNED_CONTEXT((#469))
GLOBAL_UNIT_ASSIGNED_CONTEXT((#472,#475,#473))
REPRESENTATION_CONTEXT('','3D')
);
#472=(
LENGTH_UNIT()
NAMED_UNIT(*)
SI_UNIT(.MILLI.,.METRE.)
);
#473=(
NAMED_UNIT(*)
SI_UNIT($,.STERADIAN.)
SOLID_ANGLE_UNIT()
);
#474=DIMENSIONAL_EXPONENTS(0.,0.,0.,0.,0.,0.,0.);
#475=(
CONVERSION_BASED_UNIT('degree',#477)
NAMED_UNIT(#474)
PLANE_ANGLE_UNIT()
);
#476=(
NAMED_UNIT(*)
PLANE_ANGLE_UNIT()
SI_UNIT($,.RADIAN.)
);
#477=PLANE_ANGLE_MEASURE_WITH_UNIT(PLANE_ANGLE_MEASURE(0.01745329252),#476);
#478=SHAPE_DEFINITION_REPRESENTATION(#479,#480);
#479=PRODUCT_DEFINITION_SHAPE('',$,#482);
#480=SHAPE_REPRESENTATION('',(#271),#470);
#481=PRODUCT_DEFINITION_CONTEXT('part definition',#486,'design');
#482=PRODUCT_DEFINITION('MHD-6-120-P-V-SPM0003-L15,9_Shrinkwrap_1',
'MHD-6-120-P-V-SPM0003-L15,9_Shrinkwrap_1',#483,#481);
#483=PRODUCT_DEFINITION_FORMATION('',$,#488);
#484=PRODUCT_RELATED_PRODUCT_CATEGORY(
'MHD-6-120-P-V-SPM0003-L15,9_Shrinkwrap_1',
'MHD-6-120-P-V-SPM0003-L15,9_Shrinkwrap_1',(#488));
#485=APPLICATION_PROTOCOL_DEFINITION('international standard',
'automotive_design',2009,#486);
#486=APPLICATION_CONTEXT(
'Core Data for Automotive Mechanical Design Process');
#487=PRODUCT_CONTEXT('part definition',#486,'mechanical');
#488=PRODUCT('MHD-6-120-P-V-SPM0003-L15,9_Shrinkwrap_1',
'MHD-6-120-P-V-SPM0003-L15,9_Shrinkwrap_1',$,(#487));
#489=PRESENTATION_STYLE_ASSIGNMENT((#493));
#490=PRESENTATION_STYLE_ASSIGNMENT((#494));
#491=PRESENTATION_STYLE_ASSIGNMENT((#495));
#492=PRESENTATION_STYLE_ASSIGNMENT((#496));
#493=SURFACE_STYLE_USAGE(.BOTH.,#497);
#494=SURFACE_STYLE_USAGE(.BOTH.,#498);
#495=SURFACE_STYLE_USAGE(.BOTH.,#499);
#496=SURFACE_STYLE_USAGE(.BOTH.,#500);
#497=SURFACE_SIDE_STYLE('',(#501));
#498=SURFACE_SIDE_STYLE('',(#502));
#499=SURFACE_SIDE_STYLE('',(#503));
#500=SURFACE_SIDE_STYLE('',(#504));
#501=SURFACE_STYLE_FILL_AREA(#505);
#502=SURFACE_STYLE_FILL_AREA(#506);
#503=SURFACE_STYLE_FILL_AREA(#507);
#504=SURFACE_STYLE_FILL_AREA(#508);
#505=FILL_AREA_STYLE('',(#509));
#506=FILL_AREA_STYLE('',(#510));
#507=FILL_AREA_STYLE('',(#511));
#508=FILL_AREA_STYLE('',(#512));
#509=FILL_AREA_STYLE_COLOUR('',#513);
#510=FILL_AREA_STYLE_COLOUR('',#514);
#511=FILL_AREA_STYLE_COLOUR('',#515);
#512=FILL_AREA_STYLE_COLOUR('',#516);
#513=COLOUR_RGB('',0.752941176470588,0.752941176470588,0.752941176470588);
#514=COLOUR_RGB('',0.784313725490196,0.784313725490196,0.784313725490196);
#515=COLOUR_RGB('',0.745098039215686,0.737254901960784,0.729411764705882);
#516=COLOUR_RGB('',0.784313725490196,0.784313725490196,0.784313725490196);
ENDSEC;
END-ISO-10303-21;
